Guitar Tablature: D-Riff
December 12th, 2004 | Back to Blog Listing
#----------------------------------PLEASE NOTE---------------------------------#
#This file is the author's own work and represents their interpretation of the #
#song. You may only use this file for private study, scholarship, or research. #
#------------------------------------------------------------------------------#
Song (c)2003/2004 Kevin Ludlow
This song is exclusively copyrighted by its owner.

From: ludlow@math.utexas.edu

Just a little something I was playing around with.
Tempo: Moderate

e----------14-----------12-------10-------------------------------
B----------15-----------14-------12-------------------------------
G----------14-----------14-------12-------------------------------
D--0---0--------0---0--------0-------0---0---0---0---0---0---0---0
A-----------------------------------------------------------------
E-----------------------------------------------------------------

e----------14-----------12--------15p14---------------------------
B----------15-----------14---------------15-----------------------
G----------14-----------14-------------------14/12/14-------------
D--0---0--------0---0--------0------------------------------------
A-----------------------------------------------------------------
E-----------------------------------------------------------------

e----------14-----------12-------10-------------------------------
B----------15-----------14-------12-------------------------------
G----------14-----------14-------12-------------------------------
D--0---0--------0---0--------0-------0---0---0---0---0---0---0---0
A-----------------------------------------------------------------
E-----------------------------------------------------------------

e----------14-----------12-------17/15p14-------------------------
B----------15-----------14----------------15----------10----------
G----------14-----------14-------------------14/12/11-------------
D--0---0--------0---0--------0------------------------------------
A-----------------------------------------------------------------
E-----------------------------------------------------------------