Guitar Tablature: Guitar Introduction
April 24th, 2006 | Back to Blog Listing

I was just messing around with some melodic finger plucking and happened to come up with this. I threw it into GarageBand and applied some very light effects to it. Although it might sound like there is a bass guitar in it, I just turned the bass up very high on my LC2-Sonoma and ran with it.

You can listen to the song here: Intro_20060424.mp3

e|-----------------------------------------------|--
B|-----3-----3--3-3--3---------------------3-----|--
G|-----2-----4--2p0--2-----------0h2p0-----0h2---|:-
D|--0~~~--0~~~----0~~~--0--0h2h4--------0--------|:-
A|-----------------------------------------------|--
E|-----------------------------------------------|--

e|-----------------------------------------------|--
B|-----3-----3--3-3--3---------------------3-----|--
G|-----2-----4--2p0--2-----------0h2p0-----0h2---|:-
D|-------------------------0h2h4-----------------|:-
A|-----------------------------------------------|--
E|--3~~~--3~~~----3~~~--3~~~~~~~~~~~~~--3~~~~----|--