Guitar Tablature: Chord Progression
November 25th, 2004 | View Post
#----------------------------------PLEASE NOTE---------------------------------#
#This file is the author's own work and represents their interpretation of the #
#song. You may only use this file for private study, scholarship, or research. #
#------------------------------------------------------------------------------##
Song (c)2003/2004 Kevin Ludlow
This song is exclusively copyrighted by its owner.

From: ludlow@math.utexas.edu

Short Chord Progression. Still a work in progress.
Tempo: Moderately Fast

e-------12--------12--------12--------12-----------12---12--------
B------------10--------13--------10----------------10---10--------
G--------------------------------------------------11---11--------
D---0-----------------------------------------------0---10--------
A---------------------------------------------------0----0--------

e-------12--------12----------------------------------------------
B------------10---------------------------------------------------
G-----------------------------------------------------------------
D---0-------------------------------------------------------------
A-----------------------------------------------------------------

e-------12--------12----------------------------------------------
B------------10---------------------------------------------------
G-----------------------------------------------------------------
D---0-------------------------------------------------------------
A-----------------------------------------------------------------

e-------12--------12----------------------------------------------
B------------10---------------------------------------------------
G-----------------------------------------------------------------
D---0-------------------------------------------------------------
A-----------------------------------------------------------------

Guitar Tablature: Fast Chord Progression
November 25th, 2004 | View Post
#----------------------------------PLEASE NOTE---------------------------------#
#This file is the author's own work and represents their interpretation of the #
#song. You may only use this file for private study, scholarship, or research. #
#------------------------------------------------------------------------------##
Song (c)2003/2004 Kevin Ludlow
This song is exclusively copyrighted by its owner.

From: ludlow@math.utexas.edu

Short Chord Progression. Still a work in progress.
Tempo: Moderately Fast

Am F G C B/D E/D G/C
e---0---0---0---0---0-----0-----0---------------------------------
B---1---1---0---1---3-----3-----1---------------------------------
G---2---2---0---0---0-----0-----0---------------------------------
D---2---3---0---2---0-----2-----2---------------------------------
A---0---3---2---3---2-----0-----3---------------------------------
E-------1---3-------------------3---------------------------------

Verse

Am F Am G
e-----------------------------------------------------------------
B-----------------------------------------------------------------
G-----------------------------------------------------------------
D-----------------------------------------------------------------
A-----------------------------------------------------------------
E-----------------------------------------------------------------

Chorus

Am F C G
e-----------------------------------------------------------------
B-----------------------------------------------------------------
G-----------------------------------------------------------------
D-----------------------------------------------------------------
A-----------------------------------------------------------------
E-----------------------------------------------------------------

B/D E/D G/C F G
e---------------------------------------------------------------3-
B---------------------------------------------------------------3-
G---------------------------------------------------------------0-
D---------------------------------------------------------------0-
A---------------------------------------------------------------2-
E---------------------------------------------------------------3-

e-----------------------------------------------------------------
B-----------------------------------------------------------------
G-----------------------------------------------------------------
D-----------------------------------------------------------------
A-----------------------------------------------------------------
E-----------------------------------------------------------------

Guitar Tablature: Fast Fingerpicking
November 25th, 2004 | View Post
#----------------------------------PLEASE NOTE---------------------------------#
#This file is the author's own work and represents their interpretation of the #
#song. You may only use this file for private study, scholarship, or research. #
#------------------------------------------------------------------------------##
Song (c)2003/2004 Kevin Ludlow
This song is exclusively copyrighted by its owner.

From: ludlow@math.utexas.edu

Don't know how to explain the beat of this song. It's somewhat classical.
Some fingerpicking and string frailing.

Tempo: Moderately Fast

Measure #1
e-|--------------------0---------------7p0------2-x-2---2---------
B-|-0h2---3---4---5----5-----5--------5---------2-x-2---2---------
G-|-0h2---4---5---6------6-----------6----------2-x-2---2---------
D-|---------------------------------0-----------------------------
A-|---------------0----0---0--------------------------------------
E-|-0-----0---0------------------4-----------2------2---2---------

e---------2---4-5-4-2--2h4p2-----0---0---x-------2---0---|-Repeat-
B--------2-------------------2---0---0---x-------0---0---|-Measure
G-------2------------------------1---1---x-------1---1---|-#1-----
D--------------------------------------------------------|--------
A--------------------------------------------------------|--------
E---2----------------------------0-----------0---0---0---|--------

e---0---0---x---0---2--/--7---7p0---------------------------------
B---0---0---x---0---0---------------------------------------------
G---1---1---x---1---1---------------------------------------------
D-----------------------------------------------------------------
A-----------------------------------------------------------------
E---0-----------0---0----(0)--------------------------------------

e-----------x-------5-5--5-----------------x-------5-5--5---------
B---2---2---x-------2-2--2-----2---2---2---x-------2-2--2------2--
G---2---2---x-------2-2--2-----2---2---2---x-------2-2--2------2--
D---2---2----------------------2---2---2--------------------------
A-----------------------------------------------------------------
E---2-----------2---2-2--2--2------1-----------1---1-1--1---1-----

e-----------x----------------------------4--5--7------------------
B---2---2---x-------2---------------------------------------------
G---2---2---x-------2-----------2h4p2-----------------------------
D---2---2-----------2-------2h4-----------------------------------
A-----------------------2h4-----------2--2--4--5------------------
E---0---0-------0-------------------------------------------------

e---9---9---x-------9-9------10--9--7---7---x------7--5p7--7------
B---0---0---x-------0-0-------0--0--0---0---x------0--0----0------
G-----------------------------------------------------------------
D-----------------------------------------------------------------
A-----------------------------------------------------------------
E---0-------x---0---------0---------0-------x---0-----------------

e---9---9---x-------9-9------10--12~~~~~~~~-----------------------
B---0---0---x-------0-0-------0-----------------------------------
G-----------------------------------------------------------------
D-----------------------------------------------------------------
A-----------------------------------------------------------------
E---0-------x---0---------0---------------------------------------

e---9-10---7-9---5-7---4-5---2-4---4/5\4p2p0---4p2p0---4p2p0------
B-----------------------------------------------------------------
G-----------------------------------------------------------------
D-----------------------------------------------------------------
A-----------------------------------------------------------------
E-----------------------------------------------------------------

e---4p2p0---------------------------------------------------------
B--------4p2p0----------------------------------------------------
G-------------4p2p0-----------------------------------------------
D-------------------4p2p0-----------------------------------------
A-----------------------------------------------------------------
E-----------------------------------------------------------------

Repeat From Start

Guitar Tablature: Slow Chord Progression
November 25th, 2004 | View Post
#----------------------------------PLEASE NOTE---------------------------------#
#This file is the author's own work and represents their interpretation of the #
#song. You may only use this file for private study, scholarship, or research. #
#------------------------------------------------------------------------------##
Song (c)2003/2004 Kevin Ludlow
This song is exclusively copyrighted by its owner.

From: ludlow@math.utexas.edu

Short Chord Progression. Still a work in progress.
Tempo: Slow

Intro
G F#/D
e-|------------------------------------------------------------|--
B-|------------------------------------------------------------|--
G-|-0---0---x-------0-0---0---x-------0---2---2---x-------2-2--|x2
D-|-0---0---x-------0-0---0---x-------0---0---0---x-------0-0--|--
A-|------------------------------------------------------------|--
E-|-3-------x---3-------------x---3-------2-------x---2--------|--

Em F#/D
e-----------------------------------------------------------------
B-----------------------------------------------------------------
G---0---0---x-------0-0---0---x-------0---2---2---x--------2-2----
D---2---2---x-------2-2---2---x-------2---0---0---x--------0-0----
A-----------------------------------------------------------------
E---0-------x---0-------------x---0-------2-------x----2----------

End of Intro

Verse
G F#/D
e-|------------------------------------------------------------|--
B-|-0--0-------0h1h3---3-1---0-------------------------0h1p0---|--
G-|-0--0---x---0-------0-0---0---x--2--2--x-------2-2--2------2|x4
D-|-0--0---x---0-------0-0---0---x--0--0--x-------0-0---------0|--
A-|------------------------------------------------------------|--
E-|-3------x---3-------3---3-----x--2-----x---2----------------|--

Em F#/D
e--------------------------------------------------------------|--
B------------------------------------------------------0h1p0---|--
G---0---0---x-------0-0-------------2--2--x-------2-2--2------2|x2
D---2---2---x-------2-2-------0h2---0--0--x-------0-0---------0|--
A-------------------------0h2----------------------------------|--
E---0-------x---0-------------------2-----x---2----------------|--

End of Verse

e-----------------------------------------------------------------
B-----------------------------------------------------------------
G-----------------------------------------------------------------
D-----------------------------------------------------------------
A-----------------------------------------------------------------
E-----------------------------------------------------------------

Guitar Tablature: Progression
November 25th, 2004 | View Post
#----------------------------------PLEASE NOTE---------------------------------#
#This file is the author's own work and represents their interpretation of the #
#song. You may only use this file for private study, scholarship, or research. #
#------------------------------------------------------------------------------##
Song (c)2003/2004 Kevin Ludlow
This song is exclusively copyrighted by its owner.

From: ludlow@math.utexas.edu

Little progression I have been working on. Still a work in progress.
Tempo: Moderate

e---5--------5--7-----------5--5--------5--5-----------5----------
B---7-----7--7--5--------7--7--5-----5--5--5--------5--5----------
G---------6--------------6-----------5--------------5-------------
D---0--0--------0--0--0--------0--0--------0--0--0----------------
A-----------------------------------------------------------------
E-----------------------------------------------------------------

e---5--------5--5-----------5--3--------3--2--|-Let-ring-and------
B---3-----3--3--3--------3--3--2-----2--2--2--|-then-repeat-------
G---------4--------------4-----------3-----2--|-------------------
D---0--0--------0--0--0--------0--0--------0--|-------------------
A---------------------------------------------|-------------------
E---------------------------------------------|-------------------

e------------------------6--2--------2--2--------2--|-repeat------
B---3--------3-----------3--3-----3--3--3-----3--3--|-------------
G---3-----3--3--------3-----------2-----------2-----|-------------
D---5-----5-----------5-----0--0-----------0--------|-------------
A---------------------------------------------------|-------------
E---3--3--------3--3-----3--------------------------|-------------

e-----------------------------------------------------------------
B-----------------------------------------------------------------
G-----------------------------------------------------------------
D-----------------------------------------------------------------
A-----------------------------------------------------------------
E-----------------------------------------------------------------

e-----------------------------------------------------------------
B-----------------------------------------------------------------
G-----------------------------------------------------------------
D-----------------------------------------------------------------
A-----------------------------------------------------------------
E-----------------------------------------------------------------

Guitar Tablature - Jazz Progression
November 25th, 2004 | View Post

This is a little guitar progression that I had been working on. A friend of mine actually liked it so much that she used it for a small performance in the University of Texas theater department.

 

#----------------------------------PLEASE NOTE---------------------------------#
#This file is the author's own work and represents their interpretation of the #
#song. You may only use this file for private study, scholarship, or research. #
#------------------------------------------------------------------------------#
Song (c)2003/2004 Kevin Ludlow
This song is exclusively copyrighted by its owner.

From: ludlow@math.utexas.edu

Little Jazz type of song I have been working on. Pretty much complete.
Tempo: Moderate

Verse
Measure #1
e-|---------------------------------------------------------------
B-|-----------------0---------------------------2-----------------
G-|-1---x-------1---1---x---2-------x-------2---2---x-------------
D-|-1---x-------1-------x---2-------x-------2-------x-------------
A-|---------------------------------------------------------------
E-|-0---x---0-----------x---2---2---x---2-----------x---2---------

e----------------------------------------------2------2--|Repeat--
B-------------------0-------------------------2------2---|Measure-
G---1---x-------1---1---x---2-------x--------2------2----|#1------
D---1---x-------1-------x---2-------x-------2------2-----|--------
A--------------------------------------------------------|--------
E---0---x---0-----------x---2---2---x---2----------------|--------

Chorus
Measure #2
e-|---------------------------------------------------------------
B-|-----------------4-----------------------5-------4-------------
G-|-4---x-------4---4---x-------4---x-------6-------4-------------
D-|-4---x-------4-------x-------4---x-----------------------------
A-|---------------------------------------------------------------
E-|-4---x---4-----------x---4-------x---4-------4-------4---------

Measure #3
e------------------4-------------------------------------|Repeat--
B---5-----------5--5-----------------------7-------------|Measure-
G---6---x----6--6-------x---8---x-------8--8---x---------|#2------
D-------x----7----------x---9---x-------9------x---------|--------
A--------------------------------------------------------|--------
E---5---x----5----------x---7---x---7----------x---7-----|--------

Measure #4
e-|---------------------------------------------------------------
B-|-----------------4-----------5p4-------5---4h5p4---------------
G-|-4---x-------4---4---x-------6p4-------6---4h5p4---------------
D-|-4---x-------4-------x-----------------------------4-----------
A-|---------------------------------------------------------------
E-|-4---x---4-----------x---4---------4---------------4-----------

e-----------------------------------------------------------------
B-------------------2-----/---------------------------------------
G---2---x-------2---2----x/4-------x-------4---x-----------x------
D---2---x-------2--------x/4-------x-------4---x-----------x------
A-----------------------------------------------------------------
E---2---x---2--(2)-(2)---x/4---4---x---4-------x---4---4---x------

e-----------------------------------------------------------------
B-----------4-----------5p4-------5---5--/--7--\--5--4------------
G-------5---5---x-------6p4-------6---6--/--8--\--6--4------------
D-------4-------x-------------------------------------------------
A-----------------------------------------------------------------
E---4-----------x---4---------4-----------------------------------

e----------2----------------4---------------------0--------------|
B---------2----------------4-------------0-----0-----0-----------|
G--------2----------------4-----------1-----1-----------1-------1|
D-------2----------------4---------1-----------------------0h1---|
A----------------------------------------------------------------|
E---2----------2--/--4----------0--------------------------------|
End of Chorus

Solo
Measure #5
e-----------------------------------------------------------------
B-----------------------------------------------------------------
G-------4-/-6p4------------------x---------2-------x---2----------
D-----------------h6p4-------2---x---2h4-------2-------2----------
A--------------------------------------------------x--------------
E---0--------------------2-------x-----------------x-------2------

e---------------------------------------------------|-Repeat------
B---------------------------------------------------|-Measure-----
G-------4-/-6p4-------------2---x-------2h4p2-------|-#5----------
D-----------------h6p4----------x---2h4-------h4p2--|-------------
A---------------------------------------------------|-------------
E---0-------------------2-------x-------------------|-------------

e----------------------------------7-----7--9---------------------
B--------------------------7--/-9-----9---------------------------
G-----------------4h6-/-8-(8)-------------------------------------
D-------------4h6-------------------------------------------------
A---------4h6-----------------------------------------------------
E---4--4----------------------------------------------------------

Go to Measure #3 from solo and continue. This time end on finish
of Measure #4.

Newest Albums


Recent Posts
Equipment Layout
Preparing to be a pin cushion
Preparing for a World Adventure
Chasing After a Hit-and-Run Suspect
Off-loading Terabytes of Videos to YouTube
Configuring ImageMagick RAW Delegates with DCRAW and UFRAW-Batch
The most amazing server uptime!
Baba O'Riley with Ghost of Paul Revere
Workshopping "Tired of Trying" with The Ghost
Acoustic Looping with a Violin Bow


Blog Archives
Recent Posts
July 2017 ( 3 )
December 2016
November 2016
November 2015
October 2015
March 2015 ( 3 )
January 2015
October 2014
September 2014 ( 4 )
August 2014 ( 6 )
July 2014 ( 7 )
June 2014 ( 8 )
May 2014 ( 3 )
April 2014 ( 2 )
February 2014
January 2014 ( 4 )
December 2013 ( 4 )
November 2013 ( 2 )
September 2013
August 2013 ( 3 )
July 2013
June 2013
May 2013 ( 2 )
March 2013 ( 2 )
February 2013
January 2013
December 2012
November 2012 ( 4 )
October 2012 ( 2 )
September 2012 ( 4 )
August 2012
July 2012 ( 8 )
June 2012
May 2012 ( 6 )
April 2012 ( 7 )
March 2012 ( 4 )
February 2012 ( 5 )
January 2012 ( 4 )
December 2011 ( 5 )
November 2011 ( 2 )
October 2011
September 2011
August 2011 ( 5 )
July 2011 ( 6 )
June 2011 ( 2 )
May 2011 ( 3 )
April 2011 ( 3 )
March 2011 ( 2 )
February 2011
January 2011
December 2010 ( 2 )
November 2010 ( 2 )
September 2010
August 2010
June 2010
March 2010
February 2010 ( 3 )
November 2009
June 2009
May 2009 ( 3 )
April 2009
March 2009 ( 2 )
February 2009
December 2008
November 2008
October 2008
May 2008 ( 2 )
March 2008
January 2008
December 2007
July 2007 ( 2 )
June 2007 ( 2 )
May 2007
December 2006
October 2006 ( 3 )
July 2006
May 2006 ( 2 )
April 2006
December 2005
October 2005
September 2005 ( 5 )
August 2005
July 2005
June 2005 ( 3 )
May 2005
April 2005
December 2004
November 2004 ( 6 )
May 2004
February 2004 ( 3 )
January 2004
December 2003 ( 9 )
November 2003 ( 5 )
August 2003
July 2003 ( 15 )
June 2003
September 2002
August 2002
May 2002
April 2002
December 2001 ( 2 )
July 2001
April 2001 ( 3 )
February 2001 ( 5 )
November 2000
September 2000
May 2000 ( 2 )
March 2000 ( 2 )
December 1999
November 1999 ( 3 )
October 1999 ( 5 )
September 1999
August 1999
July 1999 ( 8 )
June 1999 ( 2 )
May 1999 ( 3 )
April 1999
March 1999
December 1998
November 1998 ( 2 )
October 1998 ( 3 )
September 1998
July 1998 ( 2 )
June 1998
April 1998
March 1998
November 1997
October 1997 ( 2 )
March 1997
February 1997
January 1997
November 1995
September 1995 ( 2 )
Complete Listing